Tudo certo! Sua cifra foi processada com sucesso, anote seu código afim de realizar consultas futuras 0000034

O meu lugar é o céu

Tom: G
[Intro] Em  D  C  C  Em  D  C  C

E|----------------------------------------|
B|----------------------------------------|
G|---------------------4-5-4-0------------|   (2x)
D|-2-4-5----4-5----4-5----------4-5-4-0---|
A|--------5------3------------------------|
E|----------------------------------------|

                G 
O meu lugar é o Céu
                     D 
E lá que eu quero morar
                 Em  D C 
O meu lugar é o Céu
                     Cm6        G  D/F# 
É lá que eu quero morar

   Em 
Eu sei  não vale a pena
       D 
Tanta grana, poder, fama
      C 
Pois isso tudo aqui vou deixar
   Em                          D 
E sei que lá no céu só chega aquele que na terra
       C 
Seus bens soube compartilhar
     Em                   D 
Por isso todo dia, dia-a-dia, a cada hora
    C 
Eu sei com Deus eu posso contar
     Em                      D 
E a cada passo certo que eu der aqui na terra
      C 
Mais perto Dele eu vou ficar

                G 
O meu lugar é o Céu
                     D 
E lá que eu quero morar
                 Em  D C 
O meu lugar é o Céu
                     Cm6        G  D/F# 
É lá que eu quero morar

   Em 
Eu sei  não vale a pena
       D 
Tanta grana, poder, fama
      C 
Pois isso tudo aqui vou deixar
   Em                          D 
E sei que lá no céu só chega aquele que na terra
       C 
Seus bens soube compartilhar
     Em                   D 
Por isso todo dia, dia-a-dia, a cada hora
    C 
Eu sei com Deus eu posso contar
     Em                      D 
E a cada passo certo que eu der aqui na terra
      C 
Mais perto Dele eu vou ficar

Em  D  C  C  Em  D  C  C ) 

E|----------------------------------------|
B|----------------------------------------|
G|---------------------4-5-4-0------------|   (2x)
D|-2-4-5----4-5----4-5----------4-5-4-0---|
A|--------5------3------------------------|
E|----------------------------------------|

Am                      D     Am                G 
Buscar, bater, saber pedir... e até mesmo suplicar
Am              D 
Eu tenho um endereço
    G         F    C F 
No céu vou morar
    G         F      C 
Eu tenho um lugar

                           Am    Bm                     C    D       (G
...É lá que eu quero moraaaaar, é la que eu quero moraaaaar

Cifra O meu lugar é o céu | Músicas de Igreja